0
SECTION
2
HEADER
9
$INSUNITS
70
4
9
$ACADVER
1
AC1014
9
$HANDSEED
5
FFFF
0
ENDSEC
0
SECTION
2
TABLES
0
TABLE
2
VPORT
5
8
100
AcDbSymbolTable
0
ENDTAB
0
TABLE
2
LTYPE
5
5
100
AcDbSymbolTable
0
LTYPE
5
14
100
AcDbSymbolTableRecord
100
AcDbLinetypeTableRecord
2
BYBLOCK
70
0
0
LTYPE
5
15
100
AcDbSymbolTableRecord
100
AcDbLinetypeTableRecord
2
BYLAYER
70
0
0
LTYPE
5
16
100
AcDbSymbolTableRecord
100
AcDbLinetypeTableRecord
2
DASHED
70
0
3
Dashed __ __ __ __ __ __ __ __ __ __ __ __ __ _
72
65
73
2
40
0.75
49
0.5
74
0
49
-0.25
74
0
0
ENDTAB
0
TABLE
2
LAYER
5
2
100
AcDbSymbolTable
70
3
0
LAYER
5
50
100
AcDbSymbolTableRecord
100
AcDbLayerTableRecord
2
1
70
0
62
7
6
DASHED
0
LAYER
5
51
100
AcDbSymbolTableRecord
100
AcDbLayerTableRecord
2
0
70
0
62
7
6
CONTINUOUS
0
ENDTAB
0
TABLE
2
STYLE
5
3
100
AcDbSymbolTable
70
1
0
STYLE
5
11
100
AcDbSymbolTableRecord
100
AcDbTextStyleTableRecord
2
STANDARD
70
0
0
ENDTAB
0
TABLE
2
VIEW
5
6
100
AcDbSymbolTable
70
0
0
ENDTAB
0
TABLE
2
UCS
5
7
100
AcDbSymbolTable
70
0
0
ENDTAB
0
TABLE
2
APPID
5
9
100
AcDbSymbolTable
70
2
0
APPID
5
12
100
AcDbSymbolTableRecord
100
AcDbRegAppTableRecord
2
ACAD
70
0
0
ENDTAB
0
TABLE
2
DIMSTYLE
5
A
100
AcDbSymbolTable
70
1
0
ENDTAB
0
TABLE
2
BLOCK_RECORD
5
1
100
AcDbSymbolTable
70
1
0
BLOCK_RECORD
5
1F
100
AcDbSymbolTableRecord
100
AcDbBlockTableRecord
2
*MODEL_SPACE
0
BLOCK_RECORD
5
1B
100
AcDbSymbolTableRecord
100
AcDbBlockTableRecord
2
*PAPER_SPACE
0
ENDTAB
0
ENDSEC
0
SECTION
2
BLOCKS
0
BLOCK
5
20
100
AcDbEntity
100
AcDbBlockBegin
2
*MODEL_SPACE
0
ENDBLK
5
21
100
AcDbEntity
100
AcDbBlockEnd
0
BLOCK
5
1C
100
AcDbEntity
100
AcDbBlockBegin
2
*PAPER_SPACE
0
ENDBLK
5
1D
100
AcDbEntity
100
AcDbBlockEnd
0
ENDSEC
0
SECTION
2
ENTITIES
0
POINT
5
100
100
AcDbEntity
8
0
100
AcDbPoint
10
-13.95017218208903
20
-1.269771827706776
30
0
0
POINT
5
101
100
AcDbEntity
8
0
100
AcDbPoint
10
-13.950172182089034
20
1.2702281722932218
30
0
0
CIRCLE
5
102
100
AcDbEntity
8
0
100
AcDbCircle
10
12.425000000000001
20
-9.538000000000002
30
0
40
1.2500000000000011
210
0
220
0
230
1
0
CIRCLE
5
103
100
AcDbEntity
8
0
100
AcDbCircle
10
12.425000000000001
20
9.5380000000000003
30
0
40
1.2499999999999989
210
0
220
0
230
1
0
CIRCLE
5
104
100
AcDbEntity
8
0
100
AcDbCircle
10
-12.425000000000001
20
9.5380000000000003
30
0
40
1.25
210
0
220
0
230
1
0
CIRCLE
5
105
100
AcDbEntity
8
0
100
AcDbCircle
10
-12.425000000000001
20
-9.538000000000002
30
0
40
1.2500000000000011
210
0
220
0
230
1
0
LWPOLYLINE
5
106
100
AcDbEntity
8
0
100
AcDbPolyline
90
4
70
1
43
0.0
10
27.999827817910937
20
-27.999771827706759
10
27.999827817910937
20
28.000228172293234
10
-28.000172182089059
20
28.000228172293241
10
-28.000172182089067
20
-27.999771827706756
0
CIRCLE
5
107
100
AcDbEntity
8
0
100
AcDbCircle
10
12.425000000000001
20
9.5380000000000003
30
0
40
1.2499999999999989
210
0
220
0
230
1
0
CIRCLE
5
108
100
AcDbEntity
8
0
100
AcDbCircle
10
-12.425000000000001
20
9.5380000000000003
30
0
40
1.25
210
0
220
0
230
1
0
CIRCLE
5
109
100
AcDbEntity
8
0
100
AcDbCircle
10
-12.425000000000001
20
-9.538000000000002
30
0
40
1.2500000000000011
210
0
220
0
230
1
0
CIRCLE
5
110
100
AcDbEntity
8
0
100
AcDbCircle
10
12.425000000000001
20
-9.538000000000002
30
0
40
1.2500000000000011
210
0
220
0
230
1
0
ARC
5
111
100
AcDbEntity
8
0
100
AcDbCircle
10
13.899827817910936
20
-8.2997718277067953
30
0
40
1.9999999999999973
210
0
220
0
230
1
100
AcDbArc
50
180
51
270.00000000000006
0
ARC
5
112
100
AcDbEntity
8
0
100
AcDbCircle
10
13.999827817910933
20
-8.2997718277067882
30
0
40
2.0000000000000027
210
0
220
0
230
1
100
AcDbArc
50
270.00000000000011
51
360
0
LINE
5
113
100
AcDbEntity
8
0
100
AcDbLine
10
15.999827817910933
20
-8.2997718277067918
30
0
11
15.999827817910939
21
0.30022817229320875
31
0
0
ARC
5
114
100
AcDbEntity
8
0
100
AcDbCircle
10
13.999827817910933
20
0.30022817229320542
30
0
40
2.0000000000000062
210
0
220
-0
230
1
100
AcDbArc
50
0
51
89.999999999999943
0
ARC
5
115
100
AcDbEntity
8
0
100
AcDbCircle
10
13.899827817910937
20
0.30022817229320919
30
0
40
1.9999999999999996
210
0
220
-0
230
1
100
AcDbArc
50
90
51
180
0
LINE
5
116
100
AcDbEntity
8
0
100
AcDbLine
10
11.899827817910937
20
0.30022817229320886
30
0
11
11.899827817910937
21
-8.29977182770679
31
0
0
CIRCLE
5
117
100
AcDbEntity
8
0
100
AcDbCircle
10
13.949827817910936
20
-5.2697718277067906
30
0
40
0.35000000000000059
210
0
220
-0
230
1
0
CIRCLE
5
118
100
AcDbEntity
8
0
100
AcDbCircle
10
13.949827817910938
20
-2.7297718277067906
30
0
40
0.34999999999999926
210
0
220
-0
230
1
0
LINE
5
119
100
AcDbEntity
8
0
100
AcDbLine
10
-11.900172182089033
20
4.3002281722932265
30
0
11
-11.900172182089033
21
-4.2997718277067749
31
0
0
ARC
5
120
100
AcDbEntity
8
0
100
AcDbCircle
10
-13.900172182089038
20
4.3002281722932221
30
0
40
2.0000000000000062
210
0
220
-0
230
1
100
AcDbArc
50
0
51
89.999999999999844
0
ARC
5
121
100
AcDbEntity
8
0
100
AcDbCircle
10
-14.000172182089033
20
4.3002281722932256
30
0
40
1.9999999999999996
210
0
220
-0
230
1
100
AcDbArc
50
90
51
180
0
LINE
5
122
100
AcDbEntity
8
0
100
AcDbLine
10
-16.000172182089031
20
-4.2997718277067758
30
0
11
-16.000172182089031
21
4.3002281722932247
31
0
0
ARC
5
123
100
AcDbEntity
8
0
100
AcDbCircle
10
-14.000172182089033
20
-4.2997718277067758
30
0
40
1.9999999999999996
210
0
220
0
230
1
100
AcDbArc
50
180
51
270
0
ARC
5
124
100
AcDbEntity
8
0
100
AcDbCircle
10
-13.900172182089038
20
-4.2997718277067714
30
0
40
2.0000000000000044
210
0
220
0
230
1
100
AcDbArc
50
270.00000000000017
51
360
0
CIRCLE
5
125
100
AcDbEntity
8
0
100
AcDbCircle
10
-13.950172182089034
20
1.2702281722932218
30
0
40
0.34999999999999998
210
0
220
-0
230
1
0
CIRCLE
5
126
100
AcDbEntity
8
0
100
AcDbCircle
10
-13.95017218208903
20
-1.269771827706776
30
0
40
0.34999999999999998
210
0
220
-0
230
1
0
LWPOLYLINE
5
127
100
AcDbEntity
8
0
100
AcDbPolyline
90
8
70
1
43
0.0
10
-29.900172182089069
20
-29.499771827706752
42
0.41421356237310153
10
-29.500172182089067
20
-29.899771827706751
10
29.499827817910933
20
-29.899771827706751
42
0.41421356237310153
10
29.899827817910936
20
-29.499771827706752
10
29.899827817910936
20
29.500228172293244
42
0.41421356237310153
10
29.499827817910933
20
29.900228172293243
10
-29.500172182089067
20
29.900228172293243
42
0.41421356237310153
10
-29.900172182089069
20
29.500228172293244
0
LWPOLYLINE
5
128
100
AcDbEntity
8
0
100
AcDbPolyline
90
8
70
1
43
0.0
10
31.499827817910937
20
29.500228172293244
42
0.41421356237309631
10
29.499827817910933
20
31.500228172293248
10
-29.500172182089067
20
31.500228172293244
42
0.41421356237309631
10
-31.500172182089067
20
29.500228172293244
10
-31.50017218208907
20
-29.499771827706752
42
0.41421356237309631
10
-29.500172182089067
20
-31.499771827706759
10
29.499827817910933
20
-31.499771827706752
42
0.41421356237309631
10
31.499827817910933
20
-29.499771827706752
0
ENDSEC
0
SECTION
2
OBJECTS
0
DICTIONARY
5
C
100
AcDbDictionary
3
ACAD_GROUP
350
D
3
ACAD_MLINESTYLE
350
17
0
DICTIONARY
5
D
100
AcDbDictionary
0
DICTIONARY
5
1A
330
C
100
AcDbDictionary
0
DICTIONARY
5
17
100
AcDbDictionary
0
ENDSEC
0
EOF
