0
SECTION
2
HEADER
9
$INSUNITS
70
4
9
$ACADVER
1
AC1014
9
$HANDSEED
5
FFFF
0
ENDSEC
0
SECTION
2
TABLES
0
TABLE
2
VPORT
5
8
100
AcDbSymbolTable
0
ENDTAB
0
TABLE
2
LTYPE
5
5
100
AcDbSymbolTable
0
LTYPE
5
14
100
AcDbSymbolTableRecord
100
AcDbLinetypeTableRecord
2
BYBLOCK
70
0
0
LTYPE
5
15
100
AcDbSymbolTableRecord
100
AcDbLinetypeTableRecord
2
BYLAYER
70
0
0
LTYPE
5
16
100
AcDbSymbolTableRecord
100
AcDbLinetypeTableRecord
2
DASHED
70
0
3
Dashed __ __ __ __ __ __ __ __ __ __ __ __ __ _
72
65
73
2
40
0.75
49
0.5
74
0
49
-0.25
74
0
0
ENDTAB
0
TABLE
2
LAYER
5
2
100
AcDbSymbolTable
70
3
0
LAYER
5
50
100
AcDbSymbolTableRecord
100
AcDbLayerTableRecord
2
1
70
0
62
7
6
DASHED
0
LAYER
5
51
100
AcDbSymbolTableRecord
100
AcDbLayerTableRecord
2
0
70
0
62
7
6
CONTINUOUS
0
ENDTAB
0
TABLE
2
STYLE
5
3
100
AcDbSymbolTable
70
1
0
STYLE
5
11
100
AcDbSymbolTableRecord
100
AcDbTextStyleTableRecord
2
STANDARD
70
0
0
ENDTAB
0
TABLE
2
VIEW
5
6
100
AcDbSymbolTable
70
0
0
ENDTAB
0
TABLE
2
UCS
5
7
100
AcDbSymbolTable
70
0
0
ENDTAB
0
TABLE
2
APPID
5
9
100
AcDbSymbolTable
70
2
0
APPID
5
12
100
AcDbSymbolTableRecord
100
AcDbRegAppTableRecord
2
ACAD
70
0
0
ENDTAB
0
TABLE
2
DIMSTYLE
5
A
100
AcDbSymbolTable
70
1
0
ENDTAB
0
TABLE
2
BLOCK_RECORD
5
1
100
AcDbSymbolTable
70
1
0
BLOCK_RECORD
5
1F
100
AcDbSymbolTableRecord
100
AcDbBlockTableRecord
2
*MODEL_SPACE
0
BLOCK_RECORD
5
1B
100
AcDbSymbolTableRecord
100
AcDbBlockTableRecord
2
*PAPER_SPACE
0
ENDTAB
0
ENDSEC
0
SECTION
2
BLOCKS
0
BLOCK
5
20
100
AcDbEntity
100
AcDbBlockBegin
2
*MODEL_SPACE
0
ENDBLK
5
21
100
AcDbEntity
100
AcDbBlockEnd
0
BLOCK
5
1C
100
AcDbEntity
100
AcDbBlockBegin
2
*PAPER_SPACE
0
ENDBLK
5
1D
100
AcDbEntity
100
AcDbBlockEnd
0
ENDSEC
0
SECTION
2
ENTITIES
0
LWPOLYLINE
5
100
100
AcDbEntity
8
0
100
AcDbPolyline
90
10
70
1
43
0.0
10
14.175172182087552
20
22.900228172293051
10
14.175172182087554
20
24.500228172293042
10
-18.993247731133412
20
24.500228172293113
42
0.086690912957615329
10
-26.174827817909918
20
16.609544082349359
10
-26.174827817910415
20
-16.609087737762046
42
0.038454772968036385
10
-23.322563506504508
20
-20.421573902939798
10
-23.322563506504498
20
-17.89977182770658
42
-0.018388966931805046
10
-24.574827817910425
20
-16.137596185407972
10
-24.574827817909949
20
16.13805252999521
42
-0.078126872470922634
10
-18.43756086728542
20
22.900228172293104
0
LINE
5
101
100
AcDbEntity
8
0
100
AcDbLine
10
1.6251724950144633
20
22.900228172293076
30
0
11
1.6251724950144641
21
13.00000019371511
31
0
0
LINE
5
102
100
AcDbEntity
8
0
100
AcDbLine
10
-24.574827817910098
20
13.000228172293118
30
0
11
-24.574827817910418
21
-16.137596185407965
31
0
0
ARC
5
103
100
AcDbEntity
8
0
100
AcDbCircle
10
0.00017218209195757339
20
0.00022817229102356507
30
8.9469622653863809e-44
40
29.400000000001011
210
-1.0303046197133783e-31
220
1.5689683731982348e-31
230
1
100
AcDbArc
50
213.29196425194471
51
231.1610270328004
0
LINE
5
104
100
AcDbEntity
8
0
100
AcDbLine
10
-18.437560867285413
20
-22.899771827706612
30
5.0359163561673113e-45
11
18.437905231463535
21
-22.899771827706623
31
-2.8025969286496341e-44
0
ARC
5
105
100
AcDbEntity
8
0
100
AcDbCircle
10
0.00017218209195757339
20
0.00022817229102356507
30
8.9469622653863809e-44
40
29.399999999996279
210
2.5063079719963955e-45
220
-3.1128801141129292e-45
230
1
100
AcDbArc
50
308.83897296719078
51
326.70803574805012
0
LINE
5
106
100
AcDbEntity
8
0
100
AcDbLine
10
24.575172182088842
20
-16.137596185407546
30
0
11
24.575172182087684
21
16.138052529995694
31
0
0
ARC
5
107
100
AcDbEntity
8
0
100
AcDbCircle
10
0.00017218209195757339
20
0.00022817229102356507
30
8.9469622653863809e-44
40
29.399999999998574
210
-1.3624696949907934e-31
220
2.0747959583788754e-31
230
1
100
AcDbArc
50
33.291964251961055
51
51.161027032814538
0
LINE
5
108
100
AcDbEntity
8
0
100
AcDbLine
10
18.437905231463546
20
22.900228172293051
30
-5.7981276533743945e-30
11
1.6251724950144641
21
22.900228172293076
31
4.2038953929744512e-44
0
ARC
5
109
100
AcDbEntity
8
0
100
AcDbCircle
10
0.00017218209868552492
20
0.0002281722831076749
30
0
40
29.400000000013748
210
3.7950412958591582e-32
220
-4.7135103563133381e-32
230
1
100
AcDbArc
50
128.83897296719474
51
146.70803574804063
0
LINE
5
110
100
AcDbEntity
8
0
100
AcDbLine
10
-20.974827817909922
20
13.000228172293109
30
0
11
-20.974827817909922
21
13.000000193715104
31
-2.2204460492503131e-15
0
LINE
5
111
100
AcDbEntity
8
0
100
AcDbLine
10
1.6251724950144641
20
13.000000193715099
30
0
11
1.625172495014463
21
22.900228172293073
31
0
0
LWPOLYLINE
5
112
100
AcDbEntity
8
0
100
AcDbPolyline
90
4
70
1
43
0.0
10
-6.3748275049855385
20
21.000228172293113
10
-6.3748275049855385
20
14.200228172293112
10
-9.3748275049855394
20
14.200228172293109
10
-9.3748275049855394
20
21.000228172293109
0
LINE
5
113
100
AcDbEntity
8
0
100
AcDbLine
10
-20.174827817909922
20
13.000228172293109
30
0
11
0.82517249501446344
21
13.000228172293109
31
3.8160503118840658e-48
0
LINE
5
114
100
AcDbEntity
8
0
100
AcDbLine
10
-16.374827504985539
20
21.000228172293113
30
-2.2204460492503131e-15
11
-13.374827504985539
21
21.000228172293113
31
-2.2204460492503131e-15
0
LWPOLYLINE
5
115
100
AcDbEntity
8
0
100
AcDbPolyline
90
4
70
1
43
0.0
10
-2.3748275049855372
20
14.200228172293109
10
-2.3748275049855372
20
21.000228172293106
10
0.82517249501446344
20
21.000228172293109
10
0.82517249501446344
20
14.200228172293112
0
LWPOLYLINE
5
116
100
AcDbEntity
8
0
100
AcDbPolyline
90
4
70
1
43
0.0
10
-16.874827504985539
20
21.000228172293113
10
-16.874827504985539
20
14.200228172293112
10
-20.174827817909922
20
14.200228172293109
10
-20.174827817909922
20
21.000228172293106
0
LWPOLYLINE
5
117
100
AcDbEntity
8
0
100
AcDbPolyline
90
4
70
1
43
0.0
10
-2.8748275049855372
20
21.000228172293109
10
-2.8748275049855372
20
14.200228172293112
10
-5.8748275049855376
20
14.200228172293109
10
-5.8748275049855376
20
21.000228172293109
0
LWPOLYLINE
5
118
100
AcDbEntity
8
0
100
AcDbPolyline
90
4
70
1
43
0.0
10
-9.8748275049855394
20
21.000228172293113
10
-9.8748275049855394
20
14.200228172293112
10
-12.874827504985539
20
14.200228172293109
10
-12.874827504985539
20
21.000228172293109
0
LINE
5
119
100
AcDbEntity
8
0
100
AcDbLine
10
-13.374827504985539
20
21.000228172293113
30
-2.2204460492503131e-15
11
-13.374827504985539
21
14.200228172293112
31
-2.2204460492503131e-15
0
LINE
5
120
100
AcDbEntity
8
0
100
AcDbLine
10
-16.374827504985539
20
14.200228172293109
30
0
11
-16.374827504985539
21
21.000228172293109
31
0
0
LINE
5
121
100
AcDbEntity
8
0
100
AcDbLine
10
-23.322563506504508
20
-17.899771827706573
30
0
11
-17.174827817910462
21
-17.899771827706598
31
-3.5032461608120427e-44
0
LINE
5
122
100
AcDbEntity
8
0
100
AcDbLine
10
-14.174827817910462
20
-20.899771827706598
30
0
11
-14.174827817910462
21
-22.899771827706591
31
0
0
CIRCLE
5
123
100
AcDbEntity
8
0
100
AcDbCircle
10
18.17517218208755
20
20.400228172293026
30
0
40
2.0500000000000007
210
2.9479461211388321e-50
220
-3.8019225727861235e-84
230
1
0
LWPOLYLINE
5
124
100
AcDbEntity
8
0
100
AcDbPolyline
90
7
70
1
43
0.0
10
14.175172182087552
20
22.900228172293065
10
14.175172182087552
20
19.900228172293048
42
0.41421356237309531
10
17.175172182087554
20
16.900228172293048
10
24.057395629527743
20
16.900228172293026
10
24.057395629527743
20
19.551442968310209
42
0.057287690754004326
10
18.993592095311548
20
24.500228172293063
10
14.175172182087554
20
24.500228172293042
0
LINE
5
125
100
AcDbEntity
8
0
100
AcDbLine
10
24.057395629527743
20
16.900228172293026
30
0
11
17.175172182087554
21
16.900228172293048
31
2.8025969286496341e-44
0
LINE
5
126
100
AcDbEntity
8
0
100
AcDbLine
10
14.175172182087552
20
19.900228172293048
30
0
11
14.175172182087552
21
22.900228172293065
31
0
0
LWPOLYLINE
5
127
100
AcDbEntity
8
0
100
AcDbPolyline
90
10
70
1
43
0.0
10
24.057395629527743
20
19.551442968310205
10
24.057395629527775
20
16.900228172293016
42
-0.0078356364651109203
10
24.575172182087677
20
16.138052529995711
10
24.575172182093382
20
-16.137596185410544
42
-0.078126872470945977
10
18.437905231463546
20
-22.89977182770663
10
-14.174827817910462
20
-22.899771827706598
10
-14.174827817910465
20
-24.499771827706617
10
18.993592095311534
20
-24.499771827706631
42
0.086690912957639407
10
26.175172182088851
20
-16.609087737761598
10
26.175172182087664
20
16.60954408234986
42
0.029257917955781743
0
CIRCLE
5
128
100
AcDbEntity
8
0
100
AcDbCircle
10
-18.174827817910462
20
-21.399771827706594
30
0
40
2.0500000000000007
210
2.9479461211388321e-50
220
-3.8019225727861235e-84
230
1
0
LWPOLYLINE
5
129
100
AcDbEntity
8
0
100
AcDbPolyline
90
7
70
1
43
0.0
10
-14.174827817910462
20
-22.899771827706591
10
-14.174827817910462
20
-20.899771827706598
42
0.41421356237309503
10
-17.174827817910462
20
-17.899771827706598
10
-23.322563506504508
20
-17.899771827706573
10
-23.322563506504508
20
-20.421573902939812
42
0.048075870451769961
10
-18.993247731133408
20
-24.499771827706596
10
-14.174827817910465
20
-24.499771827706617
0
ARC
5
130
100
AcDbEntity
8
0
100
AcDbCircle
10
13.900172182089037
20
4.300228172293223
30
-1.6968848591433332e-45
40
2.0000000000000044
210
1.7636703465726237e-31
220
-1.9721522630525304e-31
230
1
100
AcDbArc
50
90.000000000000099
51
180
0
ARC
5
131
100
AcDbEntity
8
0
100
AcDbCircle
10
14.000172182089033
20
4.3002281722932256
30
5.4738221262688167e-47
40
1.9999999999999996
210
2.7187393952533588e-47
220
3.7520138179358274e-33
230
1
100
AcDbArc
50
0
51
90
0
LINE
5
132
100
AcDbEntity
8
0
100
AcDbLine
10
16.000172182089031
20
-4.2997718277067758
30
0
11
16.000172182089031
21
4.3002281722932256
31
3.6343335762100415e-49
0
ARC
5
133
100
AcDbEntity
8
0
100
AcDbCircle
10
14.000172182089033
20
-4.2997718277067758
30
3.28429327576129e-46
40
1.9999999999999996
210
1.7639110878156684e-31
220
1.9721522630525284e-31
230
1
100
AcDbArc
50
-90
51
0
0
ARC
5
134
100
AcDbEntity
8
0
100
AcDbCircle
10
13.900172182089037
20
-4.2997718277067722
30
-9.3054976146569884e-46
40
2.000000000000004
210
5.4869046262376514e-46
220
3.7520138179360053e-33
230
1
100
AcDbArc
50
180
51
269.99999999999989
0
LINE
5
135
100
AcDbEntity
8
0
100
AcDbLine
10
11.900172182089033
20
4.3002281722932265
30
3.5278221756313245e-31
11
11.900172182089033
21
-4.299771827706774
31
1.7516230804060209e-46
0
LINE
5
136
100
AcDbEntity
8
0
100
AcDbLine
10
1.3552527155000521e-18
20
19.999999999999968
30
2.2204460492503131e-15
11
1.3552527155000521e-18
21
2.4999999999999667
31
2.2204460492503131e-15
0
CIRCLE
5
137
100
AcDbEntity
8
0
100
AcDbCircle
10
13.95017218208903
20
-1.269771827706776
30
0
40
0.34999999999999998
210
0
220
0
230
1
0
CIRCLE
5
138
100
AcDbEntity
8
0
100
AcDbCircle
10
13.950172182089034
20
1.2702281722932218
30
0
40
0.34999999999999998
210
0
220
0
230
1
0
LINE
5
139
100
AcDbEntity
8
0
100
AcDbLine
10
1.6251724950144641
20
13.00000019371511
30
0
11
0.82517249501446344
21
13.000228172293118
31
-2.2204460492503131e-15
0
LINE
5
140
100
AcDbEntity
8
0
100
AcDbLine
10
0.82517249501446344
20
13.000228172293118
30
-2.2204460492503131e-15
11
-20.174827817909922
21
13.000228172293118
31
-2.2204460492503131e-15
0
LINE
5
141
100
AcDbEntity
8
0
100
AcDbLine
10
-20.174827817909922
20
13.000228172293118
30
-2.2204460492503131e-15
11
-20.974827817909922
21
13.00000019371511
31
-2.2204460492503131e-15
0
LINE
5
142
100
AcDbEntity
8
0
100
AcDbLine
10
-20.974827817909922
20
13.000000193715104
30
-2.2204460492503131e-15
11
-20.174827817909922
21
13.000228172293109
31
-5.9966509693822688e-49
0
LINE
5
143
100
AcDbEntity
8
0
100
AcDbLine
10
0.82517249501446344
20
13.000228172293113
30
-2.2204460492503131e-15
11
1.6251724950144641
21
13.000000193715099
31
0
0
LINE
5
144
100
AcDbEntity
8
0
100
AcDbLine
10
-20.974827817909922
20
13.00000019371511
30
-2.2204460492503131e-15
11
-20.974827817909922
21
13.000228172293118
31
-2.2204460492503131e-15
0
LINE
5
145
100
AcDbEntity
8
0
100
AcDbLine
10
-20.974827817909926
20
14.200228172293116
30
-1.1102230246251565e-15
11
1.6251724950144775
21
14.200228172293116
31
-1.1102230246251565e-15
0
LINE
5
146
100
AcDbEntity
8
0
100
AcDbLine
10
-20.974827817909922
20
13.000228172293118
30
-2.2204460492503131e-15
11
-24.574827817910098
21
13.000228172293118
31
0
0
LINE
5
147
100
AcDbEntity
8
0
100
AcDbLine
10
1.625172495014463
20
22.900228172293073
30
0
11
-18.437560867285416
21
22.900228172293104
31
1.779113454840624e-30
0
LINE
5
148
100
AcDbEntity
8
0
100
AcDbLine
10
-24.574827817909934
20
16.138052529995221
30
3.5032461608120427e-45
11
-24.574827817910098
21
13.000228172293109
31
0
0
LINE
5
149
100
AcDbEntity
8
0
100
AcDbLine
10
-24.574827817910098
20
13.000228172293109
30
0
11
-20.974827817909922
21
13.000228172293109
31
0
0
LINE
5
150
100
AcDbEntity
8
0
100
AcDbLine
10
-13.374827504985539
20
14.200228172293112
30
-2.2204460492503131e-15
11
-16.374827504985539
21
14.200228172293109
31
0
0
LWPOLYLINE
5
151
100
AcDbEntity
8
0
100
AcDbPolyline
90
8
70
1
43
0.0
10
-13.999827817910937
20
2.3002281722932105
42
0.41421356237309515
10
-15.999827817910939
20
0.30022817229320875
10
-15.999827817910937
20
-8.2997718277067918
42
0.41421356237309503
10
-13.999827817910937
20
-10.29977182770679
10
-13.899827817910937
20
-10.299771827706792
42
0.4142135623730952
10
-11.899827817910937
20
-8.29977182770679
10
-11.899827817910937
20
0.30022817229320919
42
0.41421356237309509
10
-13.899827817910937
20
2.3002281722932096
0
CIRCLE
5
152
100
AcDbEntity
8
0
100
AcDbCircle
10
-13.949827817910938
20
-2.7297718277067906
30
0
40
0.34999999999999926
210
0
220
0
230
1
0
CIRCLE
5
153
100
AcDbEntity
8
0
100
AcDbCircle
10
-13.949827817910936
20
-5.2697718277067906
30
0
40
0.35000000000000064
210
0
220
0
230
1
0
ENDSEC
0
SECTION
2
OBJECTS
0
DICTIONARY
5
C
100
AcDbDictionary
3
ACAD_GROUP
350
D
3
ACAD_MLINESTYLE
350
17
0
DICTIONARY
5
D
100
AcDbDictionary
0
DICTIONARY
5
1A
330
C
100
AcDbDictionary
0
DICTIONARY
5
17
100
AcDbDictionary
0
ENDSEC
0
EOF
