0
SECTION
2
HEADER
9
$INSUNITS
70
4
9
$ACADVER
1
AC1014
9
$HANDSEED
5
FFFF
0
ENDSEC
0
SECTION
2
TABLES
0
TABLE
2
VPORT
5
8
100
AcDbSymbolTable
0
ENDTAB
0
TABLE
2
LTYPE
5
5
100
AcDbSymbolTable
0
LTYPE
5
14
100
AcDbSymbolTableRecord
100
AcDbLinetypeTableRecord
2
BYBLOCK
70
0
0
LTYPE
5
15
100
AcDbSymbolTableRecord
100
AcDbLinetypeTableRecord
2
BYLAYER
70
0
0
LTYPE
5
16
100
AcDbSymbolTableRecord
100
AcDbLinetypeTableRecord
2
DASHED
70
0
3
Dashed __ __ __ __ __ __ __ __ __ __ __ __ __ _
72
65
73
2
40
0.75
49
0.5
74
0
49
-0.25
74
0
0
ENDTAB
0
TABLE
2
LAYER
5
2
100
AcDbSymbolTable
70
3
0
LAYER
5
50
100
AcDbSymbolTableRecord
100
AcDbLayerTableRecord
2
1
70
0
62
7
6
DASHED
0
LAYER
5
51
100
AcDbSymbolTableRecord
100
AcDbLayerTableRecord
2
0
70
0
62
7
6
CONTINUOUS
0
ENDTAB
0
TABLE
2
STYLE
5
3
100
AcDbSymbolTable
70
1
0
STYLE
5
11
100
AcDbSymbolTableRecord
100
AcDbTextStyleTableRecord
2
STANDARD
70
0
0
ENDTAB
0
TABLE
2
VIEW
5
6
100
AcDbSymbolTable
70
0
0
ENDTAB
0
TABLE
2
UCS
5
7
100
AcDbSymbolTable
70
0
0
ENDTAB
0
TABLE
2
APPID
5
9
100
AcDbSymbolTable
70
2
0
APPID
5
12
100
AcDbSymbolTableRecord
100
AcDbRegAppTableRecord
2
ACAD
70
0
0
ENDTAB
0
TABLE
2
DIMSTYLE
5
A
100
AcDbSymbolTable
70
1
0
ENDTAB
0
TABLE
2
BLOCK_RECORD
5
1
100
AcDbSymbolTable
70
1
0
BLOCK_RECORD
5
1F
100
AcDbSymbolTableRecord
100
AcDbBlockTableRecord
2
*MODEL_SPACE
0
BLOCK_RECORD
5
1B
100
AcDbSymbolTableRecord
100
AcDbBlockTableRecord
2
*PAPER_SPACE
0
ENDTAB
0
ENDSEC
0
SECTION
2
BLOCKS
0
BLOCK
5
20
100
AcDbEntity
100
AcDbBlockBegin
2
*MODEL_SPACE
0
ENDBLK
5
21
100
AcDbEntity
100
AcDbBlockEnd
0
BLOCK
5
1C
100
AcDbEntity
100
AcDbBlockBegin
2
*PAPER_SPACE
0
ENDBLK
5
1D
100
AcDbEntity
100
AcDbBlockEnd
0
ENDSEC
0
SECTION
2
ENTITIES
0
POINT
5
100
100
AcDbEntity
8
0
100
AcDbPoint
10
-13.900172182089037
20
6.3002281722932221
30
0
0
POINT
5
101
100
AcDbEntity
8
0
100
AcDbPoint
10
-13.900172182089037
20
6.3002281722932221
30
0
0
LWPOLYLINE
5
102
100
AcDbEntity
8
0
100
AcDbPolyline
90
10
70
1
43
0.0
10
14.175172182087552
20
22.900228172293051
10
14.175172182087554
20
24.500228172293042
10
-18.993247731133412
20
24.500228172293113
42
0.086690912957615329
10
-26.174827817909918
20
16.609544082349359
10
-26.174827817910415
20
-16.609087737762046
42
0.029257917955776508
10
-24.057051265349713
20
-19.550986623723677
10
-24.057051265349511
20
-16.89977182770679
42
-0.0078356364651215801
10
-24.574827817910425
20
-16.137596185407972
10
-24.574827817909942
20
16.1380525299952
42
-0.078126872470922634
10
-18.43756086728542
20
22.900228172293104
0
LINE
5
103
100
AcDbEntity
8
0
100
AcDbLine
10
1.6251724950144637
20
22.800228172293117
30
0
11
1.6251724950144641
21
11.200228172293116
31
0
0
LINE
5
104
100
AcDbEntity
8
0
100
AcDbLine
10
1.6251724950144641
20
11.200228172293116
30
0
11
-21.974827817909922
21
11.200228172293116
31
-2.2204460492503131e-15
0
LINE
5
105
100
AcDbEntity
8
0
100
AcDbLine
10
-21.974827817909922
20
11.200228172293116
30
-2.2204460492503131e-15
11
-21.974827817909922
21
19.531213170496329
31
-2.2204460492503111e-15
0
ARC
5
106
100
AcDbEntity
8
0
100
AcDbCircle
10
0.00017218209195757339
20
0.00022817229102356507
30
8.9469622653863809e-44
40
29.400000000003459
210
-5.6451365093558705e-17
220
5.0172958578858039e-17
230
1
100
AcDbArc
50
138.36988119722395
51
146.70803574804637
0
LINE
5
107
100
AcDbEntity
8
0
100
AcDbLine
10
-24.574827817909956
20
16.138052529995186
30
-6.56858655152258e-45
11
-24.574827817910418
21
-16.137596185407965
31
0
0
ARC
5
108
100
AcDbEntity
8
0
100
AcDbCircle
10
0.00017218209195757339
20
0.00022817229102356507
30
8.9469622653863809e-44
40
29.400000000001011
210
-1.0303046197133788e-31
220
1.5689683731982355e-31
230
1
100
AcDbArc
50
213.29196425194471
51
231.1610270328004
0
LINE
5
109
100
AcDbEntity
8
0
100
AcDbLine
10
-18.437560867285413
20
-22.899771827706612
30
5.0359163561673113e-45
11
18.437905231463535
21
-22.899771827706623
31
-2.8025969286496341e-44
0
ARC
5
110
100
AcDbEntity
8
0
100
AcDbCircle
10
0.00017218209195757339
20
0.00022817229102356507
30
8.9469622653863809e-44
40
29.399999999996279
210
2.5063079719963949e-45
220
-3.1128801141129299e-45
230
1
100
AcDbArc
50
308.83897296719078
51
326.70803574805012
0
LINE
5
111
100
AcDbEntity
8
0
100
AcDbLine
10
24.575172182088842
20
-16.137596185407546
30
0
11
24.575172182087684
21
16.138052529995694
31
0
0
ARC
5
112
100
AcDbEntity
8
0
100
AcDbCircle
10
0.00017218209195757339
20
0.00022817229102356507
30
8.9469622653863809e-44
40
29.399999999998574
210
-1.3624696949907934e-31
220
2.0747959583788754e-31
230
1
100
AcDbArc
50
33.291964251961055
51
51.161027032814538
0
LINE
5
113
100
AcDbEntity
8
0
100
AcDbLine
10
18.437905231463546
20
22.900228172293051
30
-5.7981276533743945e-30
11
-18.437560867285416
21
22.900228172293104
31
8.4077907859489024e-44
0
ARC
5
114
100
AcDbEntity
8
0
100
AcDbCircle
10
0.00017218394889662036
20
0.00022816999536878768
30
0
40
29.40000000295603
210
1.7934726506407082e-45
220
-2.2275256719287231e-45
230
1
100
AcDbArc
50
128.83897296720724
51
129.14868764223621
0
LWPOLYLINE
5
115
100
AcDbEntity
8
0
100
AcDbPolyline
90
5
70
1
43
0.0
10
-19.725952627411559
20
21.800228172293103
42
0.014723692936869771
10
-20.974827817909954
20
20.601426559766512
10
-20.974827817909922
20
12.200228172293112
10
1.6251724950144641
20
12.200228172293109
10
1.6251724950144641
20
21.800228172293107
0
LWPOLYLINE
5
116
100
AcDbEntity
8
0
100
AcDbPolyline
90
4
70
1
43
0.0
10
-6.3748275049855385
20
21.000228172293113
10
-6.3748275049855385
20
13.000228172293113
10
-9.3748275049855394
20
13.000228172293109
10
-9.3748275049855394
20
21.000228172293109
0
LWPOLYLINE
5
117
100
AcDbEntity
8
0
100
AcDbPolyline
90
4
70
1
43
0.0
10
-2.3748275049855372
20
13.000228172293109
10
-2.3748275049855372
20
21.000228172293106
10
0.82517249501446344
20
21.000228172293109
10
0.82517249501446344
20
13.000228172293113
0
LWPOLYLINE
5
118
100
AcDbEntity
8
0
100
AcDbPolyline
90
4
70
1
43
0.0
10
-16.874827504985539
20
21.000228172293113
10
-16.874827504985539
20
13.000228172293113
10
-20.174827817909922
20
13.000228172293109
10
-20.174827817909922
20
21.000228172293106
0
LWPOLYLINE
5
119
100
AcDbEntity
8
0
100
AcDbPolyline
90
4
70
1
43
0.0
10
-2.8748275049855372
20
21.000228172293109
10
-2.8748275049855372
20
13.000228172293113
10
-5.8748275049855376
20
13.000228172293109
10
-5.8748275049855376
20
21.000228172293109
0
LWPOLYLINE
5
120
100
AcDbEntity
8
0
100
AcDbPolyline
90
4
70
1
43
0.0
10
-9.8748275049855394
20
21.000228172293113
10
-9.8748275049855394
20
13.000228172293113
10
-12.874827504985539
20
13.000228172293109
10
-12.874827504985539
20
21.000228172293109
0
LWPOLYLINE
5
121
100
AcDbEntity
8
0
100
AcDbPolyline
90
4
70
1
43
0.0
10
-13.374827504985539
20
21.000228172293113
10
-13.374827504985539
20
13.000228172293113
10
-16.374827504985539
20
13.000228172293109
10
-16.374827504985539
20
21.000228172293109
0
LINE
5
122
100
AcDbEntity
8
0
100
AcDbLine
10
-24.057051265349706
20
-16.899771827706537
30
0
11
-14.174827817910462
21
-16.899771827706619
31
-1.1210387714598537e-43
0
LINE
5
123
100
AcDbEntity
8
0
100
AcDbLine
10
-14.174827817910462
20
-16.899771827706619
30
-1.1210387714598537e-43
11
-14.174827817910462
21
-22.899771827706591
31
0
0
CIRCLE
5
124
100
AcDbEntity
8
0
100
AcDbCircle
10
18.17517218208755
20
20.400228172293026
30
0
40
2.0500000000000007
210
2.9479461211388321e-50
220
-3.8019225727861235e-84
230
1
0
LWPOLYLINE
5
125
100
AcDbEntity
8
0
100
AcDbPolyline
90
6
70
1
43
0.0
10
14.175172182087552
20
22.900228172293065
10
14.175172182087552
20
16.900228172293026
10
24.057395629527743
20
16.900228172293026
10
24.057395629527743
20
19.551442968310209
42
0.057287690754004326
10
18.993592095311548
20
24.500228172293063
10
14.175172182087554
20
24.500228172293042
0
LINE
5
126
100
AcDbEntity
8
0
100
AcDbLine
10
24.057395629527743
20
16.900228172293026
30
0
11
14.175172182087552
21
16.900228172293026
31
3.0653403907105373e-45
0
LINE
5
127
100
AcDbEntity
8
0
100
AcDbLine
10
14.175172182087552
20
16.900228172293026
30
3.0653403907105373e-45
11
14.175172182087552
21
22.900228172293065
31
0
0
LWPOLYLINE
5
128
100
AcDbEntity
8
0
100
AcDbPolyline
90
10
70
1
43
0.0
10
24.057395629527743
20
19.551442968310205
10
24.057395629527775
20
16.900228172293016
42
-0.0078356364651109203
10
24.575172182087677
20
16.138052529995711
10
24.575172182093382
20
-16.137596185410544
42
-0.078126872470945977
10
18.437905231463546
20
-22.89977182770663
10
-14.174827817910462
20
-22.899771827706598
10
-14.174827817910465
20
-24.499771827706617
10
18.993592095311534
20
-24.499771827706631
42
0.086690912957639407
10
26.175172182088851
20
-16.609087737761598
10
26.175172182087664
20
16.60954408234986
42
0.029257917955781743
0
CIRCLE
5
129
100
AcDbEntity
8
0
100
AcDbCircle
10
-18.174827817910462
20
-20.399771827706623
30
0
40
2.0500000000000007
210
2.9479461211388321e-50
220
-3.8019225727861235e-84
230
1
0
LWPOLYLINE
5
130
100
AcDbEntity
8
0
100
AcDbPolyline
90
6
70
1
43
0.0
10
-14.174827817910462
20
-22.899771827706591
10
-14.174827817910462
20
-16.899771827706619
10
-24.057051265349706
20
-16.899771827706537
10
-24.057051265349706
20
-19.550986623723688
42
0.057287690754005187
10
-18.993247731133408
20
-24.499771827706596
10
-14.174827817910465
20
-24.499771827706617
0
ARC
5
131
100
AcDbEntity
8
0
100
AcDbCircle
10
-13.900172182089035
20
-4.299771827706774
30
4.1246105006142763e-46
40
2.0000000000000009
210
8.1996467382286774e-32
220
1.9721522630525267e-31
230
1
100
AcDbArc
50
-90
51
0
0
LINE
5
132
100
AcDbEntity
8
0
100
AcDbLine
10
-11.900172182089035
20
-4.299771827706774
30
-1.6399293476457318e-31
11
-11.900172182089035
21
4.3002281722932265
31
0
0
ARC
5
133
100
AcDbEntity
8
0
100
AcDbCircle
10
-14.000172182089033
20
-4.299771827706774
30
3.0860595173719346e-64
40
2.0000000000000018
210
-1.8171667881049934e-49
220
-3.5819263178509083e-65
230
1
100
AcDbArc
50
180
51
269.99999999999994
0
LINE
5
134
100
AcDbEntity
8
0
100
AcDbLine
10
-16.000172182089035
20
4.3002281722932265
30
0
11
-16.000172182089035
21
-4.2997718277067758
31
-3.6343335762099876e-49
0
ARC
5
135
100
AcDbEntity
8
0
100
AcDbCircle
10
-13.900172182089038
20
4.3002281722932256
30
-3.0860595173719346e-64
40
2.000000000000004
210
-1.5430297586859643e-64
220
1.4617247014948441e-65
230
1
100
AcDbArc
50
0
51
89.999999999999943
0
ARC
5
136
100
AcDbEntity
8
0
100
AcDbCircle
10
-14.000172182089033
20
4.3002281722932265
30
-1.9158377441940858e-46
40
2
210
8.2008504444439063e-32
220
-4.7441573604135695e-48
230
1
100
AcDbArc
50
90.000000000000057
51
180
0
ARC
5
137
100
AcDbEntity
8
0
100
AcDbCircle
10
13.900172182089035
20
4.3002281722932265
30
-3.28429327576129e-46
40
1.9999999999999996
210
1.7636703465726171e-31
220
1.9721522630525284e-31
230
1
100
AcDbArc
50
90
51
180
0
ARC
5
138
100
AcDbEntity
8
0
100
AcDbCircle
10
14.000172182089033
20
4.3002281722932247
30
3.8316754883881717e-46
40
2.0000000000000018
210
1.6968848591433306e-46
220
1.9721522630525308e-31
230
1
100
AcDbArc
50
0
51
89.999999999999943
0
LINE
5
139
100
AcDbEntity
8
0
100
AcDbLine
10
16.000172182089035
20
-4.2997718277067758
30
0
11
16.000172182089035
21
4.3002281722932256
31
-1.7516230804060209e-46
0
ARC
5
140
100
AcDbEntity
8
0
100
AcDbCircle
10
14.000172182089033
20
-4.2997718277067722
30
1.0947644252537633e-45
40
2.0000000000000022
210
1.7639110878156631e-31
220
-1.9721522630525317e-31
230
1
100
AcDbArc
50
270.00000000000006
51
360
0
ARC
5
141
100
AcDbEntity
8
0
100
AcDbCircle
10
13.900172182089037
20
-4.2997718277067731
30
-4.926439913641935e-46
40
2.0000000000000018
210
1.3666383647790981e-46
220
1.9721522630525295e-31
230
1
100
AcDbArc
50
180
51
269.99999999999994
0
LINE
5
142
100
AcDbEntity
8
0
100
AcDbLine
10
11.900172182089035
20
4.3002281722932265
30
3.5273406931452321e-31
11
11.900172182089035
21
-4.299771827706774
31
-3.6343335762096161e-49
0
CIRCLE
5
143
100
AcDbEntity
8
0
100
AcDbCircle
10
-13.950172182089034
20
-1.2697718277067782
30
0
40
0.34999999999999998
210
0
220
0
230
1
0
CIRCLE
5
144
100
AcDbEntity
8
0
100
AcDbCircle
10
-13.950172182089034
20
1.2702281722932218
30
0
40
0.34999999999999998
210
0
220
0
230
1
0
LINE
5
145
100
AcDbEntity
8
0
100
AcDbLine
10
-14.000172182089035
20
-6.2997718277067758
30
-1.4842932291841699e-64
11
-13.900172182089035
21
-6.2997718277067749
31
3.944304526105059e-31
0
LINE
5
146
100
AcDbEntity
8
0
100
AcDbLine
10
1.3552527155000521e-18
20
19.999999999999968
30
2.2204460492503131e-15
11
1.3552527155000521e-18
21
2.4999999999999667
31
2.2204460492503131e-15
0
CIRCLE
5
147
100
AcDbEntity
8
0
100
AcDbCircle
10
13.950172182089034
20
-1.269771827706776
30
0
40
0.34999999999999998
210
0
220
0
230
1
0
CIRCLE
5
148
100
AcDbEntity
8
0
100
AcDbCircle
10
13.950172182089034
20
1.2702281722932218
30
0
40
0.34999999999999998
210
0
220
0
230
1
0
ENDSEC
0
SECTION
2
OBJECTS
0
DICTIONARY
5
C
100
AcDbDictionary
3
ACAD_GROUP
350
D
3
ACAD_MLINESTYLE
350
17
0
DICTIONARY
5
D
100
AcDbDictionary
0
DICTIONARY
5
1A
330
C
100
AcDbDictionary
0
DICTIONARY
5
17
100
AcDbDictionary
0
ENDSEC
0
EOF
